  0
SECTION
  2
HEADER
  9
$ACADVER
  1
AC1015
  9
$ACADMAINTVER
 70
     6
  9
$DWGCODEPAGE
  3
ANSI_1254
  9
$INSBASE
 10
0.0
 20
0.0
 30
0.0
  9
$EXTMIN
 10
0.0
 20
0.0
 30
0.0
  9
$EXTMAX
 10
279.4
 20
215.9
 30
0.0
  9
$LIMMIN
 10
0.0
 20
0.0
  9
$LIMMAX
 10
279.4
 20
215.9
  9
$ORTHOMODE
 70
     0
  9
$REGENMODE
 70
     1
  9
$FILLMODE
 70
     1
  9
$QTEXTMODE
 70
     0
  9
$MIRRTEXT
 70
     1
  9
$LTSCALE
 40
1.0
  9
$ATTMODE
 70
     1
  9
$TEXTSIZE
 40
3.5
  9
$TRACEWID
 40
1.0
  9
$TEXTSTYLE
  7
Standard
  9
$CLAYER
  8
0
  9
$CELTYPE
  6
ByLayer
  9
$CECOLOR
 62
   256
  9
$CELTSCALE
 40
1.0
  9
$DISPSILH
 70
     0
  9
$DIMSCALE
 40
1.0
  9
$DIMASZ
 40
3.5
  9
$DIMEXO
 40
1.0
  9
$DIMDLI
 40
3.75
  9
$DIMRND
 40
0.0
  9
$DIMDLE
 40
0.0
  9
$DIMEXE
 40
1.0
  9
$DIMTP
 40
0.0
  9
$DIMTM
 40
0.0
  9
$DIMTXT
 40
3.5
  9
$DIMCEN
 40
2.5
  9
$DIMTSZ
 40
0.0
  9
$DIMTOL
 70
     0
  9
$DIMLIM
 70
     0
  9
$DIMTIH
 70
     1
  9
$DIMTOH
 70
     1
  9
$DIMSE1
 70
     0
  9
$DIMSE2
 70
     0
  9
$DIMTAD
 70
     1
  9
$DIMZIN
 70
     0
  9
$DIMBLK
  1

  9
$DIMASO
 70
     1
  9
$DIMSHO
 70
     1
  9
$DIMPOST
  1

  9
$DIMAPOST
  1

  9
$DIMALT
 70
     0
  9
$DIMALTD
 70
     3
  9
$DIMALTF
 40
0.0393700787
  9
$DIMLFAC
 40
1.0
  9
$DIMTOFL
 70
     1
  9
$DIMTVP
 40
0.0
  9
$DIMTIX
 70
     0
  9
$DIMSOXD
 70
     0
  9
$DIMSAH
 70
     0
  9
$DIMBLK1
  1

  9
$DIMBLK2
  1

  9
$DIMSTYLE
  2
ISO-25
  9
$DIMCLRD
 70
     0
  9
$DIMCLRE
 70
     0
  9
$DIMCLRT
 70
     0
  9
$DIMTFAC
 40
1.0
  9
$DIMGAP
 40
1.524
  9
$DIMJUST
 70
     0
  9
$DIMSD1
 70
     0
  9
$DIMSD2
 70
     0
  9
$DIMTOLJ
 70
     0
  9
$DIMTZIN
 70
     0
  9
$DIMALTZ
 70
     0
  9
$DIMALTTZ
 70
     0
  9
$DIMUPT
 70
     0
  9
$DIMDEC
 70
     2
  9
$DIMTDEC
 70
     2
  9
$DIMALTU
 70
     2
  9
$DIMALTTD
 70
     3
  9
$DIMTXSTY
  7
Standard
  9
$DIMAUNIT
 70
     0
  9
$DIMADEC
 70
     2
  9
$DIMALTRND
 40
0.0
  9
$DIMAZIN
 70
     0
  9
$DIMDSEP
 70
    44
  9
$DIMATFIT
 70
     3
  9
$DIMFRAC
 70
     0
  9
$DIMLDRBLK
  1

  9
$DIMLUNIT
 70
     2
  9
$DIMLWD
 70
    -2
  9
$DIMLWE
 70
    -2
  9
$DIMTMOVE
 70
     0
  9
$LUNITS
 70
     2
  9
$LUPREC
 70
     2
  9
$SKETCHINC
 40
1.0
  9
$FILLETRAD
 40
10.0
  9
$AUNITS
 70
     0
  9
$AUPREC
 70
     2
  9
$MENU
  1
.
  9
$ELEVATION
 40
0.0
  9
$PELEVATION
 40
0.0
  9
$THICKNESS
 40
0.0
  9
$LIMCHECK
 70
     0
  9
$CHAMFERA
 40
0.0
  9
$CHAMFERB
 40
0.0
  9
$CHAMFERC
 40
0.0
  9
$CHAMFERD
 40
0.0
  9
$SKPOLY
 70
     0
  9
$TDCREATE
 40
2460608.530414282
  9
$TDUCREATE
 40
2460608.405414282
  9
$TDUPDATE
 40
2460608.530414352
  9
$TDUUPDATE
 40
2460608.405414352
  9
$TDINDWG
 40
0.0000000116
  9
$TDUSRTIMER
 40
0.0000000116
  9
$USRTIMER
 70
     1
  9
$ANGBASE
 50
0.0
  9
$ANGDIR
 70
     0
  9
$PDMODE
 70
     0
  9
$PDSIZE
 40
-1.0
  9
$PLINEWID
 40
0.0
  9
$SPLFRAME
 70
     0
  9
$SPLINETYPE
 70
     6
  9
$SPLINESEGS
 70
     8
  9
$HANDSEED
  5
D2
  9
$SURFTAB1
 70
     6
  9
$SURFTAB2
 70
     6
  9
$SURFTYPE
 70
     6
  9
$SURFU
 70
     6
  9
$SURFV
 70
     6
  9
$UCSBASE
  2

  9
$UCSNAME
  2

  9
$UCSORG
 10
0.0
 20
0.0
 30
0.0
  9
$UCSXDIR
 10
1.0
 20
0.0
 30
0.0
  9
$UCSYDIR
 10
0.0
 20
1.0
 30
0.0
  9
$UCSORTHOREF
  2

  9
$UCSORTHOVIEW
 70
     0
  9
$UCSORGTOP
 10
0.0
 20
0.0
 30
0.0
  9
$UCSORGBOTTOM
 10
0.0
 20
0.0
 30
0.0
  9
$UCSORGLEFT
 10
0.0
 20
0.0
 30
0.0
  9
$UCSORGRIGHT
 10
0.0
 20
0.0
 30
0.0
  9
$UCSORGFRONT
 10
0.0
 20
0.0
 30
0.0
  9
$UCSORGBACK
 10
0.0
 20
0.0
 30
0.0
  9
$PUCSBASE
  2

  9
$PUCSNAME
  2

  9
$PUCSORG
 10
0.0
 20
0.0
 30
0.0
  9
$PUCSXDIR
 10
1.0
 20
0.0
 30
0.0
  9
$PUCSYDIR
 10
0.0
 20
1.0
 30
0.0
  9
$PUCSORTHOREF
  2

  9
$PUCSORTHOVIEW
 70
     0
  9
$PUCSORGTOP
 10
0.0
 20
0.0
 30
0.0
  9
$PUCSORGBOTTOM
 10
0.0
 20
0.0
 30
0.0
  9
$PUCSORGLEFT
 10
0.0
 20
0.0
 30
0.0
  9
$PUCSORGRIGHT
 10
0.0
 20
0.0
 30
0.0
  9
$PUCSORGFRONT
 10
0.0
 20
0.0
 30
0.0
  9
$PUCSORGBACK
 10
0.0
 20
0.0
 30
0.0
  9
$USERI1
 70
     0
  9
$USERI2
 70
     0
  9
$USERI3
 70
     0
  9
$USERI4
 70
     0
  9
$USERI5
 70
     0
  9
$USERR1
 40
0.0
  9
$USERR2
 40
0.0
  9
$USERR3
 40
0.0
  9
$USERR4
 40
0.0
  9
$USERR5
 40
0.0
  9
$WORLDVIEW
 70
     1
  9
$SHADEDGE
 70
     3
  9
$SHADEDIF
 70
    70
  9
$TILEMODE
 70
     1
  9
$MAXACTVP
 70
    64
  9
$PINSBASE
 10
0.0
 20
0.0
 30
0.0
  9
$PLIMCHECK
 70
     0
  9
$PEXTMIN
 10
1.0000000000E+20
 20
1.0000000000E+20
 30
1.0000000000E+20
  9
$PEXTMAX
 10
-1.0000000000E+20
 20
-1.0000000000E+20
 30
-1.0000000000E+20
  9
$PLIMMIN
 10
0.0
 20
0.0
  9
$PLIMMAX
 10
420.0
 20
297.0
  9
$UNITMODE
 70
     0
  9
$VISRETAIN
 70
     1
  9
$PLINEGEN
 70
     0
  9
$PSLTSCALE
 70
     1
  9
$TREEDEPTH
 70
  3020
  9
$CMLSTYLE
  2
Standard
  9
$CMLJUST
 70
     0
  9
$CMLSCALE
 40
20.0
  9
$PROXYGRAPHICS
 70
     1
  9
$MEASUREMENT
 70
     1
  9
$CELWEIGHT
370
    -1
  9
$ENDCAPS
280
     0
  9
$JOINSTYLE
280
     0
  9
$LWDISPLAY
290
     1
  9
$INSUNITS
 70
     4
  9
$HYPERLINKBASE
  1

  9
$STYLESHEET
  1

  9
$XEDIT
290
     1
  9
$CEPSNTYPE
380
     0
  9
$PSTYLEMODE
290
     1
  9
$FINGERPRINTGUID
  2
{0f305dc4-5f7b-43b5-a8b6-aece56694339}
  9
$VERSIONGUID
  2
{FAEB1C32-E019-11D5-929B-00C0DF256EC4}
  9
$EXTNAMES
290
     1
  9
$PSVPSCALE
 40
0.0
  9
$OLESTARTUP
290
     0
  0
ENDSEC
  0
SECTION
  2
CLASSES
  0
CLASS
  1
ACDBDICTIONARYWDFLT
  2
AcDbDictionaryWithDefault
  3
ObjectDBX Classes
 90
        0
280
     0
281
     0
  0
CLASS
  1
VISUALSTYLE
  2
AcDbVisualStyle
  3
ObjectDBX Classes
 90
     4095
280
     0
281
     0
  0
CLASS
  1
MATERIAL
  2
AcDbMaterial
  3
ObjectDBX Classes
 90
     1153
280
     0
281
     0
  0
CLASS
  1
SCALE
  2
AcDbScale
  3
ObjectDBX Classes
 90
     1153
280
     0
281
     0
  0
CLASS
  1
TABLESTYLE
  2
AcDbTableStyle
  3
ObjectDBX Classes
 90
     4095
280
     0
281
     0
  0
CLASS
  1
MLEADERSTYLE
  2
AcDbMLeaderStyle
  3
ACDB_MLEADERSTYLE_CLASS
 90
     4095
280
     0
281
     0
  0
CLASS
  1
SUN
  2
AcDbSun
  3
SCENEOE
 90
     1153
280
     0
281
     0
  0
CLASS
  1
ACDBPLACEHOLDER
  2
AcDbPlaceHolder
  3
ObjectDBX Classes
 90
        0
280
     0
281
     0
  0
CLASS
  1
LAYOUT
  2
AcDbLayout
  3
ObjectDBX Classes
 90
        0
280
     0
281
     0
  0
ENDSEC
  0
SECTION
  2
TABLES
  0
TABLE
  2
VPORT
  5
8
330
0
100
AcDbSymbolTable
 70
     1
  0
VPORT
  5
29
330
8
100
AcDbSymbolTableRecord
100
AcDbViewportTableRecord
  2
*Active
 70
     0
 10
0.0
 20
0.0
 11
1.0
 21
1.0
 12
139.7
 22
107.95
 13
0.0
 23
0.0
 14
10.0
 24
10.0
 15
10.0
 25
10.0
 16
0.0
 26
0.0
 36
1.0
 17
0.0
 27
0.0
 37
0.0
 40
215.9
 41
1.2941176471
 42
50.0
 43
0.0
 44
0.0
 50
0.0
 51
0.0
 71
     0
 72
  2000
 73
     1
 74
     3
 75
     0
 76
     0
 77
     0
 78
     0
281
     0
 65
     1
110
0.0
120
0.0
130
0.0
111
1.0
121
0.0
131
0.0
112
0.0
122
1.0
132
0.0
 79
     0
146
0.0
  0
ENDTAB
  0
TABLE
  2
LTYPE
  5
5
330
0
100
AcDbSymbolTable
 70
     6
  0
LTYPE
  5
14
330
5
100
AcDbSymbolTableRecord
100
AcDbLinetypeTableRecord
  2
ByBlock
 70
     0
  3

 72
    65
 73
     0
 40
0.0
  0
LTYPE
  5
15
330
5
100
AcDbSymbolTableRecord
100
AcDbLinetypeTableRecord
  2
ByLayer
 70
     0
  3

 72
    65
 73
     0
 40
0.0
  0
LTYPE
  5
16
330
5
100
AcDbSymbolTableRecord
100
AcDbLinetypeTableRecord
  2
Continuous
 70
     0
  3
Solid line
 72
    65
 73
     0
 40
0.0
  0
LTYPE
  5
6E
330
5
100
AcDbSymbolTableRecord
100
AcDbLinetypeTableRecord
  2
HIDDEN
 70
     0
  3
Hidden __ __ __ __ __ __ __ __ __ __ __ __ __ __
 72
    65
 73
     2
 40
1.905
 49
1.27
 74
     0
 49
-0.635
 74
     0
  0
LTYPE
  5
6F
330
5
100
AcDbSymbolTableRecord
100
AcDbLinetypeTableRecord
  2
PHANTOM
 70
     0
  3
Phantom ______  __  __  ______  __  __  ______
 72
    65
 73
     6
 40
12.7
 49
6.35
 74
     0
 49
-1.27
 74
     0
 49
1.27
 74
     0
 49
-1.27
 74
     0
 49
1.27
 74
     0
 49
-1.27
 74
     0
  0
LTYPE
  5
70
330
5
100
AcDbSymbolTableRecord
100
AcDbLinetypeTableRecord
  2
CENTER
 70
     0
  3
Center ____ _ ____ _ ____ _ ____ _ ____ _ ____
 72
    65
 73
     4
 40
10.16
 49
6.35
 74
     0
 49
-1.27
 74
     0
 49
1.27
 74
     0
 49
-1.27
 74
     0
  0
LTYPE
  5
71
330
5
100
AcDbSymbolTableRecord
100
AcDbLinetypeTableRecord
  2
CENTERX2
 70
     0
  3
Center (2x) ________  __  ________  __  _____
 72
    65
 73
     4
 40
20.32
 49
12.7
 74
     0
 49
-2.54
 74
     0
 49
2.54
 74
     0
 49
-2.54
 74
     0
  0
LTYPE
  5
72
330
5
100
AcDbSymbolTableRecord
100
AcDbLinetypeTableRecord
  2
DOT2
 70
     0
  3
Dot (.5x) ........................................
 72
    65
 73
     2
 40
0.635
 49
0.0
 74
     0
 49
-0.635
 74
     0
  0
ENDTAB
  0
TABLE
  2
LAYER
  5
2
330
0
100
AcDbSymbolTable
 70
    17
  0
LAYER
  5
10
330
2
100
AcDbSymbolTableRecord
100
AcDbLayerTableRecord
  2
0
 70
     0
 62
     7
  6
Continuous
370
    -3
390
F
  0
LAYER
  5
73
330
2
100
AcDbSymbolTableRecord
100
AcDbLayerTableRecord
  2
FORMAT
 70
     0
 62
     7
  6
Continuous
370
    -3
390
F
  0
LAYER
  5
74
330
2
100
AcDbSymbolTableRecord
100
AcDbLayerTableRecord
  2
YARDIMCI_GEOMETRI
 70
     0
 62
    -6
  6
Continuous
290
     0
370
    -3
390
F
  0
LAYER
  5
75
330
2
100
AcDbSymbolTableRecord
100
AcDbLayerTableRecord
  2
SAYFA_CERCEVESI
 70
     0
 62
     7
  6
Continuous
370
    25
390
F
  0
LAYER
  5
76
330
2
100
AcDbSymbolTableRecord
100
AcDbLayerTableRecord
  2
ANTET
 70
     0
 62
     7
  6
Continuous
370
    -3
390
F
  0
LAYER
  5
77
330
2
100
AcDbSymbolTableRecord
100
AcDbLayerTableRecord
  2
OLCU
 70
     0
 62
   150
  6
Continuous
370
    -3
390
F
  0
LAYER
  5
78
330
2
100
AcDbSymbolTableRecord
100
AcDbLayerTableRecord
  2
METIN
 70
     0
 62
    96
  6
Continuous
370
    -3
390
F
  0
LAYER
  5
79
330
2
100
AcDbSymbolTableRecord
100
AcDbLayerTableRecord
  2
BALON
 70
     0
 62
     5
  6
Continuous
370
    -3
390
F
  0
LAYER
  5
7A
330
2
100
AcDbSymbolTableRecord
100
AcDbLayerTableRecord
  2
VURGU
 70
     0
 62
     7
  6
Continuous
370
    -3
390
F
  0
LAYER
  5
7B
330
2
100
AcDbSymbolTableRecord
100
AcDbLayerTableRecord
  2
SILIK
 70
     0
 62
     7
  6
Continuous
370
    -3
390
F
  0
LAYER
  5
7C
330
2
100
AcDbSymbolTableRecord
100
AcDbLayerTableRecord
  2
MODEL
 70
     0
 62
     7
  6
Continuous
370
    -3
390
F
  0
LAYER
  5
7D
330
2
100
AcDbSymbolTableRecord
100
AcDbLayerTableRecord
  2
DETAYLANDıRMA
 70
     0
 62
   190
  6
Continuous
370
    -3
390
F
  0
LAYER
  5
7E
330
2
100
AcDbSymbolTableRecord
100
AcDbLayerTableRecord
  2
TOLERANS
 70
     0
 62
   230
  6
Continuous
370
    -3
390
F
  0
LAYER
  5
7F
330
2
100
AcDbSymbolTableRecord
100
AcDbLayerTableRecord
  2
MERKEZ_CIZGILERI
 70
     0
 62
    30
  6
Continuous
370
    -3
390
F
  0
LAYER
  5
80
330
2
100
AcDbSymbolTableRecord
100
AcDbLayerTableRecord
  2
KESIT-DETAY_CIZGILERI
 70
     0
 62
     7
  6
Continuous
370
    -3
390
F
  0
LAYER
  5
81
330
2
100
AcDbSymbolTableRecord
100
AcDbLayerTableRecord
  2
\U+041E\U+0421\U+0415\U+0412\U+042B\U+0415
 70
     0
 62
     7
  6
Continuous
370
    -3
390
F
  0
LAYER
  5
82
330
2
100
AcDbSymbolTableRecord
100
AcDbLayerTableRecord
  2
\U+0412\U+041E\U+0414\U+042F\U+041D\U+042B\U+0415_\U+0417\U+041D\U+0410\U+041A\U+0418
 70
     0
 62
    11
  6
Continuous
370
    -3
390
F
  0
ENDTAB
  0
TABLE
  2
STYLE
  5
3
330
0
100
AcDbSymbolTable
 70
     1
  0
STYLE
  5
11
330
3
100
AcDbSymbolTableRecord
100
AcDbTextStyleTableRecord
  2
Standard
 70
     0
 40
0.0
 41
1.0
 50
0.0
 71
     0
 42
3.5
  3
txt
  4

  0
ENDTAB
  0
TABLE
  2
VIEW
  5
6
330
0
100
AcDbSymbolTable
 70
     0
  0
ENDTAB
  0
TABLE
  2
UCS
  5
7
330
0
100
AcDbSymbolTable
 70
     0
  0
ENDTAB
  0
TABLE
  2
APPID
  5
9
330
0
100
AcDbSymbolTable
 70
     1
  0
APPID
  5
12
330
9
100
AcDbSymbolTableRecord
100
AcDbRegAppTableRecord
  2
ACAD
 70
     0
  0
ENDTAB
  0
TABLE
  2
DIMSTYLE
  5
A
330
0
100
AcDbSymbolTable
 70
     1
100
AcDbDimStyleTable
  0
DIMSTYLE
105
27
330
A
100
AcDbSymbolTableRecord
100
AcDbDimStyleTableRecord
  2
ISO-25
 70
     0
 41
2.5
 42
0.625
 43
3.75
 44
1.25
 73
     0
 74
     0
 77
     1
 78
     8
140
2.5
141
2.5
143
0.0393700787
147
0.625
171
     3
172
     1
178
     0
271
     2
272
     2
274
     3
278
    44
283
     0
284
     8
340
11
  0
ENDTAB
  0
TABLE
  2
BLOCK_RECORD
  5
1
330
0
100
AcDbSymbolTable
 70
     3
  0
BLOCK_RECORD
  5
1F
330
1
100
AcDbSymbolTableRecord
100
AcDbBlockTableRecord
  2
*Model_Space
340
22
  0
BLOCK_RECORD
  5
1B
330
1
100
AcDbSymbolTableRecord
100
AcDbBlockTableRecord
  2
*Paper_Space
340
1E
  0
BLOCK_RECORD
  5
23
330
1
100
AcDbSymbolTableRecord
100
AcDbBlockTableRecord
  2
*Paper_Space0
340
26
  0
BLOCK_RECORD
  5
88
330
1
100
AcDbSymbolTableRecord
100
AcDbBlockTableRecord
  2
SW_CENTERMARKSYMBOL_0
340
0
102
{BLKREFS
331
93
102
}
  0
BLOCK_RECORD
  5
9E
330
1
100
AcDbSymbolTableRecord
100
AcDbBlockTableRecord
  2
SW_CENTERMARKSYMBOL_1
340
0
102
{BLKREFS
331
A9
102
}
  0
ENDTAB
  0
ENDSEC
  0
SECTION
  2
BLOCKS
  0
BLOCK
  5
20
330
1F
100
AcDbEntity
  8
0
100
AcDbBlockBegin
  2
*Model_Space
 70
     0
 10
0.0
 20
0.0
 30
0.0
  3
*Model_Space
  1

  0
ENDBLK
  5
21
330
1F
100
AcDbEntity
  8
0
100
AcDbBlockEnd
  0
BLOCK
  5
1C
330
1B
100
AcDbEntity
 67
     1
  8
0
100
AcDbBlockBegin
  2
*Paper_Space
 70
     0
 10
0.0
 20
0.0
 30
0.0
  3
*Paper_Space
  1

  0
ENDBLK
  5
1D
330
1B
100
AcDbEntity
 67
     1
  8
0
100
AcDbBlockEnd
  0
BLOCK
  5
24
330
23
100
AcDbEntity
  8
0
100
AcDbBlockBegin
  2
*Paper_Space0
 70
     0
 10
0.0
 20
0.0
 30
0.0
  3
*Paper_Space0
  1

  0
ENDBLK
  5
25
330
23
100
AcDbEntity
  8
0
100
AcDbBlockEnd
  0
BLOCK
  5
89
330
88
100
AcDbEntity
  8
0
100
AcDbBlockBegin
  2
SW_CENTERMARKSYMBOL_0
 70
     0
 10
0.0
 20
0.0
 30
0.0
  3
SW_CENTERMARKSYMBOL_0
  1

  0
LINE
  5
8B
330
88
100
AcDbEntity
  8
FORMAT
 62
     0
100
AcDbLine
 10
0.0
 20
0.0
 30
0.0
 11
0.0
 21
2.5
 31
0.0
  0
LINE
  5
8C
330
88
100
AcDbEntity
  8
FORMAT
 62
     0
100
AcDbLine
 10
0.0
 20
0.0
 30
0.0
 11
-2.5
 21
0.0
 31
0.0
  0
LINE
  5
8D
330
88
100
AcDbEntity
  8
FORMAT
 62
     0
100
AcDbLine
 10
0.0
 20
0.0
 30
0.0
 11
0.0
 21
-2.5
 31
0.0
  0
LINE
  5
8E
330
88
100
AcDbEntity
  8
FORMAT
 62
     0
100
AcDbLine
 10
0.0
 20
0.0
 30
0.0
 11
2.5
 21
0.0
 31
0.0
  0
LINE
  5
8F
330
88
100
AcDbEntity
  8
FORMAT
 62
     0
100
AcDbLine
 10
0.0
 20
5.0
 30
0.0
 11
0.0
 21
180.0
 31
0.0
  0
LINE
  5
90
330
88
100
AcDbEntity
  8
FORMAT
 62
     0
100
AcDbLine
 10
-5.0
 20
0.0
 30
0.0
 11
-180.0
 21
0.0
 31
0.0
  0
LINE
  5
91
330
88
100
AcDbEntity
  8
FORMAT
 62
     0
100
AcDbLine
 10
0.0
 20
-5.0
 30
0.0
 11
0.0
 21
-180.0
 31
0.0
  0
LINE
  5
92
330
88
100
AcDbEntity
  8
FORMAT
 62
     0
100
AcDbLine
 10
5.0
 20
0.0
 30
0.0
 11
180.0
 21
0.0
 31
0.0
  0
ENDBLK
  5
8A
330
88
100
AcDbEntity
  8
0
100
AcDbBlockEnd
  0
BLOCK
  5
9F
330
9E
100
AcDbEntity
  8
0
100
AcDbBlockBegin
  2
SW_CENTERMARKSYMBOL_1
 70
     0
 10
0.0
 20
0.0
 30
0.0
  3
SW_CENTERMARKSYMBOL_1
  1

  0
LINE
  5
A1
330
9E
100
AcDbEntity
  8
FORMAT
 62
     0
100
AcDbLine
 10
0.0
 20
0.0
 30
0.0
 11
0.0
 21
2.5
 31
0.0
  0
LINE
  5
A2
330
9E
100
AcDbEntity
  8
FORMAT
 62
     0
100
AcDbLine
 10
0.0
 20
0.0
 30
0.0
 11
-2.5
 21
0.0
 31
0.0
  0
LINE
  5
A3
330
9E
100
AcDbEntity
  8
FORMAT
 62
     0
100
AcDbLine
 10
0.0
 20
0.0
 30
0.0
 11
0.0
 21
-2.5
 31
0.0
  0
LINE
  5
A4
330
9E
100
AcDbEntity
  8
FORMAT
 62
     0
100
AcDbLine
 10
0.0
 20
0.0
 30
0.0
 11
2.5
 21
0.0
 31
0.0
  0
LINE
  5
A5
330
9E
100
AcDbEntity
  8
FORMAT
 62
     0
100
AcDbLine
 10
0.0
 20
5.0
 30
0.0
 11
0.0
 21
180.0
 31
0.0
  0
LINE
  5
A6
330
9E
100
AcDbEntity
  8
FORMAT
 62
     0
100
AcDbLine
 10
-5.0
 20
0.0
 30
0.0
 11
-180.0
 21
0.0
 31
0.0
  0
LINE
  5
A7
330
9E
100
AcDbEntity
  8
FORMAT
 62
     0
100
AcDbLine
 10
0.0
 20
-5.0
 30
0.0
 11
0.0
 21
-180.0
 31
0.0
  0
LINE
  5
A8
330
9E
100
AcDbEntity
  8
FORMAT
 62
     0
100
AcDbLine
 10
5.0
 20
0.0
 30
0.0
 11
180.0
 21
0.0
 31
0.0
  0
ENDBLK
  5
A0
330
9E
100
AcDbEntity
  8
0
100
AcDbBlockEnd
  0
ENDSEC
  0
SECTION
  2
ENTITIES
  0
LINE
  5
83
330
1F
100
AcDbEntity
  8
0
  6
Continuous
 62
     7
370
    25
100
AcDbLine
 10
49.0530216111
 20
-69.1489361702
 30
0.0
 11
443.0530216111
 21
-69.1489361702
 31
0.0
  0
LINE
  5
84
330
1F
100
AcDbEntity
  8
0
  6
Continuous
 62
     7
370
    25
100
AcDbLine
 10
443.0530216111
 20
285.8510638298
 30
0.0
 11
49.0530216111
 21
285.8510638298
 31
0.0
  0
CIRCLE
  5
85
330
1F
100
AcDbEntity
  8
0
  6
Continuous
 62
     7
370
    25
100
AcDbCircle
 10
49.0530216111
 20
108.3510638298
 30
0.0
 40
145.3
  0
CIRCLE
  5
86
330
1F
100
AcDbEntity
  8
0
  6
Continuous
 62
     7
370
    25
100
AcDbCircle
 10
49.0530216111
 20
108.3510638298
 30
0.0
 40
177.5
  0
LINE
  5
87
330
1F
100
AcDbEntity
  8
0
  6
Continuous
 62
     7
370
    25
100
AcDbLine
 10
443.0530216111
 20
285.8510638298
 30
0.0
 11
443.0530216111
 21
-69.1489361702
 31
0.0
  0
INSERT
  5
93
330
1F
100
AcDbEntity
  8
FORMAT
 62
     7
100
AcDbBlockReference
  2
SW_CENTERMARKSYMBOL_0
 10
49.0530216111
 20
108.3510638298
 30
0.0
  0
LINE
  5
94
330
1F
100
AcDbEntity
  8
0
  6
Continuous
 62
     7
370
    25
100
AcDbLine
 10
-775.1515588583
 20
285.8510638298
 30
0.0
 11
-1169.6515588583
 21
285.8510638298
 31
0.0
  0
LINE
  5
95
330
1F
100
AcDbEntity
  8
0
  6
Continuous
 62
     7
370
    25
100
AcDbLine
 10
-380.6515588583
 20
285.8510638298
 30
0.0
 11
-775.1515588583
 21
285.8510638298
 31
0.0
  0
LINE
  5
96
330
1F
100
AcDbEntity
  8
0
  6
Continuous
 62
     7
370
    25
100
AcDbLine
 10
-775.1515588583
 20
-69.1489361702
 30
0.0
 11
-380.6515588583
 21
-69.1489361702
 31
0.0
  0
LINE
  5
97
330
1F
100
AcDbEntity
  8
0
  6
Continuous
 62
     7
370
    25
100
AcDbLine
 10
-1169.6515588583
 20
-69.1489361702
 30
0.0
 11
-775.1515588583
 21
-69.1489361702
 31
0.0
  0
CIRCLE
  5
98
330
1F
100
AcDbEntity
  8
0
  6
Continuous
 62
     7
370
    25
100
AcDbCircle
 10
-775.1515588583
 20
108.3510638298
 30
0.0
 40
145.3
  0
CIRCLE
  5
99
330
1F
100
AcDbEntity
  8
0
  6
Continuous
 62
     7
370
    25
100
AcDbCircle
 10
-775.1515588583
 20
108.3510638298
 30
0.0
 40
177.5
  0
LINE
  5
9A
330
1F
100
AcDbEntity
  8
0
  6
Continuous
 62
     7
370
    25
100
AcDbLine
 10
-1169.6515588583
 20
108.3510638298
 30
0.0
 11
-1169.6515588583
 21
285.8510638298
 31
0.0
  0
LINE
  5
9B
330
1F
100
AcDbEntity
  8
0
  6
Continuous
 62
     7
370
    25
100
AcDbLine
 10
-1169.6515588583
 20
-69.1489361702
 30
0.0
 11
-1169.6515588583
 21
108.3510638298
 31
0.0
  0
LINE
  5
9C
330
1F
100
AcDbEntity
  8
0
  6
Continuous
 62
     7
370
    25
100
AcDbLine
 10
-380.6515588583
 20
108.3510638298
 30
0.0
 11
-380.6515588583
 21
285.8510638298
 31
0.0
  0
LINE
  5
9D
330
1F
100
AcDbEntity
  8
0
  6
Continuous
 62
     7
370
    25
100
AcDbLine
 10
-380.6515588583
 20
-69.1489361702
 30
0.0
 11
-380.6515588583
 21
108.3510638298
 31
0.0
  0
INSERT
  5
A9
330
1F
100
AcDbEntity
  8
FORMAT
 62
     7
100
AcDbBlockReference
  2
SW_CENTERMARKSYMBOL_1
 10
-775.1515588583
 20
108.3510638298
 30
0.0
  0
LINE
  5
AA
330
1F
100
AcDbEntity
  8
0
  6
Continuous
 62
     7
370
    25
100
AcDbLine
 10
226.5530216111
 20
1029.8605607495
 30
0.0
 11
226.5530216111
 21
1246.8605607495
 31
0.0
  0
LINE
  5
AB
330
1F
100
AcDbEntity
  8
0
  6
Continuous
 62
     7
370
    25
100
AcDbLine
 10
226.5530216111
 20
457.8605607495
 30
0.0
 11
226.5530216111
 21
674.8605607495
 31
0.0
  0
LINE
  5
AC
330
1F
100
AcDbEntity
  8
0
  6
Continuous
 62
     7
370
    25
100
AcDbLine
 10
-128.4469783889
 20
1246.8605607495
 30
0.0
 11
-128.4469783889
 21
457.8605607495
 31
0.0
  0
LINE
  5
AD
330
1F
100
AcDbEntity
  8
0
  6
Continuous
 62
     7
370
    25
100
AcDbLine
 10
226.5530216111
 20
674.8605607495
 30
0.0
 11
443.0530216111
 21
674.8605607495
 31
0.0
  0
LINE
  5
AE
330
1F
100
AcDbEntity
  8
0
  6
Continuous
 62
     7
370
    25
100
AcDbLine
 10
443.0530216111
 20
1029.8605607495
 30
0.0
 11
226.5530216111
 21
1029.8605607495
 31
0.0
  0
LINE
  5
AF
330
1F
100
AcDbEntity
  8
0
  6
Continuous
 62
     7
370
    25
100
AcDbLine
 10
226.5530216111
 20
1029.8605607495
 30
0.0
 11
49.0530216111
 21
852.3605607495
 31
0.0
  0
LINE
  5
B0
330
1F
100
AcDbEntity
  8
0
  6
Continuous
 62
     7
370
    25
100
AcDbLine
 10
49.0530216111
 20
852.3605607495
 30
0.0
 11
226.5530216111
 21
674.8605607495
 31
0.0
  0
LINE
  5
B1
330
1F
100
AcDbEntity
  8
0
  6
Continuous
 62
     7
370
    25
100
AcDbLine
 10
-128.4469783889
 20
1246.8605607495
 30
0.0
 11
226.5530216111
 21
1246.8605607495
 31
0.0
  0
LINE
  5
B2
330
1F
100
AcDbEntity
  8
0
  6
Continuous
 62
     7
370
    25
100
AcDbLine
 10
-128.4469783889
 20
457.8605607495
 30
0.0
 11
226.5530216111
 21
457.8605607495
 31
0.0
  0
LINE
  5
B3
330
1F
100
AcDbEntity
  8
0
  6
Continuous
 62
     7
370
    25
100
AcDbLine
 10
443.0530216111
 20
1029.8605607495
 30
0.0
 11
443.0530216111
 21
674.8605607495
 31
0.0
  0
LINE
  5
B4
330
1F
100
AcDbEntity
  8
0
  6
Continuous
 62
     7
370
    25
100
AcDbLine
 10
1128.9413582074
 20
-69.1489361702
 30
0.0
 11
1523.4413582074
 21
-69.1489361702
 31
0.0
  0
LINE
  5
B5
330
1F
100
AcDbEntity
  8
0
  6
Continuous
 62
     7
370
    25
100
AcDbLine
 10
734.4413582074
 20
-69.1489361702
 30
0.0
 11
1128.9413582074
 21
-69.1489361702
 31
0.0
  0
LINE
  5
B6
330
1F
100
AcDbEntity
  8
0
  6
Continuous
 62
     7
370
    25
100
AcDbLine
 10
1128.9413582074
 20
285.8510638298
 30
0.0
 11
734.4413582074
 21
285.8510638298
 31
0.0
  0
LINE
  5
B7
330
1F
100
AcDbEntity
  8
0
  6
Continuous
 62
     7
370
    25
100
AcDbLine
 10
1523.4413582074
 20
285.8510638298
 30
0.0
 11
1128.9413582074
 21
285.8510638298
 31
0.0
  0
LINE
  5
B8
330
1F
100
AcDbEntity
  8
0
  6
Continuous
 62
     7
370
    25
100
AcDbLine
 10
1523.4413582074
 20
285.8510638298
 30
0.0
 11
1523.4413582074
 21
-69.1489361702
 31
0.0
  0
LINE
  5
B9
330
1F
100
AcDbEntity
  8
0
  6
Continuous
 62
     7
370
    25
100
AcDbLine
 10
734.4413582074
 20
285.8510638298
 30
0.0
 11
734.4413582074
 21
-69.1489361702
 31
0.0
  0
LINE
  5
BA
330
1F
100
AcDbEntity
  8
0
  6
Continuous
 62
     7
370
    25
100
AcDbLine
 10
-128.4469783889
 20
-230.471397471
 30
0.0
 11
-128.4469783889
 21
-1019.471397471
 31
0.0
  0
LINE
  5
BB
330
1F
100
AcDbEntity
  8
0
  6
Continuous
 62
     7
370
    25
100
AcDbLine
 10
226.5530216111
 20
-447.471397471
 30
0.0
 11
226.5530216111
 21
-230.471397471
 31
0.0
  0
LINE
  5
BC
330
1F
100
AcDbEntity
  8
0
  6
Continuous
 62
     7
370
    25
100
AcDbLine
 10
226.5530216111
 20
-1019.471397471
 30
0.0
 11
226.5530216111
 21
-802.471397471
 31
0.0
  0
LINE
  5
BD
330
1F
100
AcDbEntity
  8
0
  6
Continuous
 62
     7
370
    25
100
AcDbLine
 10
226.5530216111
 20
-802.471397471
 30
0.0
 11
443.0530216111
 21
-802.471397471
 31
0.0
  0
LINE
  5
BE
330
1F
100
AcDbEntity
  8
0
  6
Continuous
 62
     7
370
    25
100
AcDbLine
 10
443.0530216111
 20
-447.471397471
 30
0.0
 11
226.5530216111
 21
-447.471397471
 31
0.0
  0
LINE
  5
BF
330
1F
100
AcDbEntity
  8
0
  6
Continuous
 62
     7
370
    25
100
AcDbLine
 10
49.0530216111
 20
-624.971397471
 30
0.0
 11
226.5530216111
 21
-802.471397471
 31
0.0
  0
LINE
  5
C0
330
1F
100
AcDbEntity
  8
0
  6
Continuous
 62
     7
370
    25
100
AcDbLine
 10
226.5530216111
 20
-447.471397471
 30
0.0
 11
49.0530216111
 21
-624.971397471
 31
0.0
  0
LINE
  5
C1
330
1F
100
AcDbEntity
  8
0
  6
Continuous
 62
     7
370
    25
100
AcDbLine
 10
226.5530216111
 20
-1019.471397471
 30
0.0
 11
-128.4469783889
 21
-1019.471397471
 31
0.0
  0
LINE
  5
C2
330
1F
100
AcDbEntity
  8
0
  6
Continuous
 62
     7
370
    25
100
AcDbLine
 10
226.5530216111
 20
-230.471397471
 30
0.0
 11
-128.4469783889
 21
-230.471397471
 31
0.0
  0
LINE
  5
C3
330
1F
100
AcDbEntity
  8
0
  6
Continuous
 62
     7
370
    25
100
AcDbLine
 10
443.0530216111
 20
-447.471397471
 30
0.0
 11
443.0530216111
 21
-802.471397471
 31
0.0
  0
LINE
  5
C4
330
1F
100
AcDbEntity
  8
0
  6
Continuous
 62
     7
370
    25
100
AcDbLine
 10
1051.8954993261
 20
-432.6029068486
 30
0.0
 11
861.6846616695
 21
-322.796527564
 31
0.0
  0
LINE
  5
C5
330
1F
100
AcDbEntity
  8
0
  6
Continuous
 62
     7
370
    25
100
AcDbLine
 10
1419.5919120257
 20
-644.869527678
 30
0.0
 11
1406.9243515851
 21
-637.5567006936
 31
0.0
  0
LINE
  5
C6
330
1F
100
AcDbEntity
  8
0
  6
Continuous
 62
     7
370
    25
100
AcDbLine
 10
684.1990866266
 20
-630.2438737091
 30
0.0
 11
1242.1063369828
 21
-952.3168738232
 31
0.0
  0
LINE
  5
C7
330
1F
100
AcDbEntity
  8
0
  6
Continuous
 62
     7
370
    25
100
AcDbLine
 10
1229.381074369
 20
-740.0502529938
 30
0.0
 11
1419.2383586351
 21
-630.4479757371
 31
0.0
  0
LINE
  5
C8
330
1F
100
AcDbEntity
  8
0
  6
Continuous
 62
     7
370
    25
100
AcDbLine
 10
1241.7527835922
 20
-323.0006295919
 30
0.0
 11
1051.8954993261
 21
-432.6029068486
 31
0.0
  0
LINE
  5
C9
330
1F
100
AcDbEntity
  8
0
  6
Continuous
 62
     7
370
    25
100
AcDbLine
 10
1051.8954993261
 20
-432.6029068486
 30
0.0
 11
1051.8954993261
 21
-782.4926948033
 31
0.0
  0
ELLIPSE
  5
CA
330
1F
100
AcDbEntity
  8
0
  6
Continuous
 62
     7
370
    25
100
AcDbEllipse
 10
1051.8954993261
 20
-637.5567006936
 30
0.0
 11
251.0229073212242
 21
4.547473508864641E-13
 31
0.0
210
0.0
220
0.0
230
1.0
 40
0.5773815452
 41
4.712388980384697
 42
5.49770587972005
  0
LWPOLYLINE
  5
CB
330
1F
100
AcDbEntity
  8
0
  6
Continuous
 62
     7
370
    25
100
AcDbPolyline
 90
      142
 70
   128
 43
0.0
 10
898.4533278086
 20
-404.0639807123
 10
898.328732122
 20
-397.6794660705
 10
897.9551924351
 20
-391.4514824093
 10
897.3334503766
 20
-385.3923948138
 10
896.4647403578
 20
-379.5142330417
 10
895.3507871219
 20
-373.8286676388
 10
893.9938023199
 20
-368.3469867692
 10
892.3964801197
 20
-363.0800738027
 10
890.5619918566
 20
-358.0383857075
 10
888.4939797373
 20
-353.2319322887
 10
886.1965496082
 20
-348.6702563145
 10
883.6742628044
 20
-344.3624145705
 10
880.9321270928
 20
-340.3169598776
 10
877.9755867301
 20
-336.5419241116
 10
874.8105116534
 20
-333.0448022567
 10
871.4431858263
 20
-329.8325375245
 10
867.8802947626
 20
-326.9115075694
 10
864.1289122527
 20
-324.287511826
 10
860.1964863193
 20
-321.9657599948
 10
856.0908244301
 20
-319.9508616993
 10
851.8200779968
 20
-318.2468173335
 10
847.392726191
 20
-316.8570101198
 10
842.81755911
 20
-315.7841993917
 10
838.1036603245
 20
-315.0305151157
 10
833.2603888443
 20
-314.5974536621
 10
828.2973605364
 20
-314.4858748343
 10
823.2244290343
 20
-314.6960001617
 10
818.0516661738
 20
-315.2274124601
 10
812.7893419968
 20
-316.0790566594
 10
807.4479043608
 20
-317.249241899
 10
802.0379581959
 20
-318.7356448842
 10
796.5702444494
 20
-320.5353144998
 10
791.0556187608
 20
-322.644677668
 10
785.5050299089
 20
-325.0595464438
 10
779.9294980742
 20
-327.7751263286
 10
774.340092959
 20
-330.7860257899
 10
768.7479118097
 20
-334.0862669656
 10
763.1640573845
 20
-337.6692975322
 10
757.5996159094
 20
-341.5280037144
 10
752.0656350679
 20
-345.654724408
 10
746.5731020666
 20
-350.0412663912
 10
741.1329218215
 20
-354.6789205909
 10
735.7558953069
 20
-359.558479374
 10
730.4526981112
 20
-364.6702548282
 10
725.2338592415
 20
-370.0040979964
 10
720.1097402194
 20
-375.5494190268
 10
715.0905145087
 20
-381.2952081978
 10
710.1861473177
 20
-387.2300577769
 10
705.4063758134
 20
-393.3421846695
 10
700.7606897896
 20
-399.6194538135
 10
696.2583128259
 20
-406.049402272
 10
691.9081839751
 20
-412.6192639777
 10
687.7189400153
 20
-419.315995078
 10
683.6988983026
 20
-426.1262998335
 10
679.8560402577
 20
-433.0366570143
 10
676.1979955196
 20
-440.033346746
 10
672.7320267974
 20
-447.1024777486
 10
669.4650154513
 20
-454.2300149171
 10
666.4034478299
 20
-461.4018071859
 10
663.5534023922
 20
-468.6036156256
 10
660.9205376398
 20
-475.821141712
 10
658.5100808818
 20
-483.0400557152
 10
656.326817857
 20
-490.2460251497
 10
654.3750832321
 20
-497.4247432301
 10
652.6587519954
 20
-504.5619572762
 10
651.1812317639
 20
-511.6434970101
 10
649.9454560171
 20
-518.6553026903
 10
648.9538782735
 20
-525.5834530255
 10
648.2084672188
 20
-532.4141928147
 10
647.7107027976
 20
-539.1339602561
 10
647.4615732752
 20
-545.7294138737
 10
647.4615732752
 20
-552.1874590047
 10
647.7107027976
 20
-558.4952737983
 10
648.2084672188
 20
-564.6403346721
 10
648.9538782735
 20
-570.6104411765
 10
649.9454560171
 20
-576.3937402178
 10
651.1812317639
 20
-581.9787495909
 10
652.6587519954
 20
-587.3543807769
 10
654.3750832321
 20
-592.5099609574
 10
656.326817857
 20
-597.4352542054
 10
658.5100808818
 20
-602.1204818069
 10
660.9205376398
 20
-606.5563416763
 10
663.5534023922
 20
-610.7340268243
 10
666.4034478299
 20
-614.6452428439
 10
669.4650154513
 20
-618.2822243777
 10
672.7320267974
 20
-621.6377505354
 10
676.1979955196
 20
-624.7051592305
 10
679.8560402577
 20
-627.478360407
 10
683.6988983026
 20
-629.9518481306
 10
687.7189400153
 20
-632.1207115204
 10
691.9081839751
 20
-633.980644499
 10
696.2583128259
 20
-635.5279543414
 10
700.7606897896
 20
-636.7595690074
 10
705.4063758134
 20
-637.6730432399
 10
710.1861473177
 20
-638.2665634204
 10
715.0905145087
 20
-638.5389511696
 10
720.1097402194
 20
-638.4896656868
 10
725.2338592415
 20
-638.1188048237
 10
730.4526981112
 20
-637.4271048903
 10
735.7558953069
 20
-636.4159391927
 10
741.1329218215
 20
-635.0873153069
 10
746.5731020666
 20
-633.4438710926
 10
752.0656350679
 20
-631.4888694561
 10
757.5996159094
 20
-629.2261918723
 10
763.1640573845
 20
-626.660330678
 10
768.7479118097
 20
-623.7963801532
 10
774.340092959
 20
-620.6400264064
 10
779.9294980742
 20
-617.197536086
 10
785.5050299089
 20
-613.4757439377
 10
791.0556187608
 20
-609.4820392354
 10
796.5702444494
 20
-605.2243511101
 10
802.0379581959
 20
-600.7111328075
 10
807.4479043608
 20
-595.9513449047
 10
812.7893419968
 20
-590.95443752
 10
818.0516661738
 20
-585.7303315506
 10
823.2244290343
 20
-580.2893989751
 10
828.2973605364
 20
-574.6424422617
 10
833.2603888443
 20
-568.8006729202
 10
838.1036603245
 20
-562.7756892429
 10
842.81755911
 20
-556.5794532771
 10
847.392726191
 20
-550.2242670758
 10
851.8200779968
 20
-543.722748273
 10
856.0908244301
 20
-537.0878050324
 10
860.1964863193
 20
-530.3326104197
 10
864.1289122527
 20
-523.4705762485
 10
867.8802947626
 20
-516.5153264524
 10
871.4431858263
 20
-509.4806700362
 10
874.8105116534
 20
-502.3805736589
 10
877.9755867301
 20
-495.2291339048
 10
880.9321270928
 20
-488.0405492954
 10
883.6742628044
 20
-480.8290921001
 10
886.1965496082
 20
-473.6090799997
 10
888.4939797373
 20
-466.3948476599
 10
890.5619918566
 20
-459.2007182711
 10
892.3964801197
 20
-452.0409751114
 10
893.9938023199
 20
-444.9298331881
 10
895.3507871219
 20
-437.8814110152
 10
896.4647403578
 20
-430.9097025825
 10
897.3334503766
 20
-424.0285495718
 10
897.9551924351
 20
-417.2516138754
 10
898.328732122
 20
-410.5923504719
 10
898.4533278086
 20
-404.0639807123
  0
LWPOLYLINE
  5
CC
330
1F
100
AcDbEntity
  8
0
  6
Continuous
 62
     7
370
    25
100
AcDbPolyline
 90
       19
 70
   128
 43
0.0
 10
1456.3605781648
 20
-726.1369808263
 10
1456.2359824781
 20
-719.7524661845
 10
1455.8624427913
 20
-713.5244825234
 10
1455.2407007328
 20
-707.4653949279
 10
1454.3719907139
 20
-701.5872331557
 10
1453.258037478
 20
-695.9016677529
 10
1451.9010526761
 20
-690.4199868832
 10
1450.3037304759
 20
-685.1530739168
 10
1448.4692422128
 20
-680.1113858216
 10
1446.4012300934
 20
-675.3049324027
 10
1444.1037999644
 20
-670.7432564286
 10
1441.5815131606
 20
-666.4354146845
 10
1438.839377449
 20
-662.3899599916
 10
1435.8828370863
 20
-658.6149242257
 10
1432.7177620096
 20
-655.1178023707
 10
1429.3504361825
 20
-651.9055376386
 10
1425.7875451188
 20
-648.9845076835
 10
1422.0361626089
 20
-646.36051194
 10
1419.5919120257
 20
-644.869527678
  0
LWPOLYLINE
  5
CD
330
1F
100
AcDbEntity
  8
0
  6
Continuous
 62
     7
370
    25
100
AcDbPolyline
 90
       54
 70
   128
 43
0.0
 10
1242.1063369828
 20
-952.3168738232
 10
1245.6261903715
 20
-954.1937116345
 10
1249.8154343313
 20
-956.053644613
 10
1254.1655631821
 20
-957.6009544555
 10
1258.6679401458
 20
-958.8325691215
 10
1263.3136261695
 20
-959.746043354
 10
1268.0933976739
 20
-960.3395635345
 10
1272.9977648649
 20
-960.6119512837
 10
1278.0169905755
 20
-960.5626658009
 10
1283.1411095977
 20
-960.1918049378
 10
1288.3599484674
 20
-959.5001050044
 10
1293.6631456631
 20
-958.4889393068
 10
1299.0401721777
 20
-957.160315421
 10
1304.4803524228
 20
-955.5168712067
 10
1309.972885424
 20
-953.5618695702
 10
1315.5068662656
 20
-951.2991919864
 10
1321.0713077407
 20
-948.7333307921
 10
1326.6551621659
 20
-945.8693802672
 10
1332.2473433152
 20
-942.7130265205
 10
1337.8367484304
 20
-939.2705362
 10
1343.4122802651
 20
-935.5487440518
 10
1348.962869117
 20
-931.5550393495
 10
1354.4774948056
 20
-927.2973512242
 10
1359.9452085521
 20
-922.7841329216
 10
1365.355154717
 20
-918.0243450188
 10
1370.696592353
 20
-913.0274376341
 10
1375.95891653
 20
-907.8033316646
 10
1381.1316793905
 20
-902.3623990892
 10
1386.2046108926
 20
-896.7154423758
 10
1391.1676392005
 20
-890.8736730343
 10
1396.0109106807
 20
-884.8486893569
 10
1400.7248094662
 20
-878.6524533911
 10
1405.2999765472
 20
-872.2972671899
 10
1409.727328353
 20
-865.7957483871
 10
1413.9980747863
 20
-859.1608051465
 10
1418.1037366755
 20
-852.4056105338
 10
1422.0361626089
 20
-845.5435763626
 10
1425.7875451188
 20
-838.5883265665
 10
1429.3504361825
 20
-831.5536701503
 10
1432.7177620096
 20
-824.453573773
 10
1435.8828370863
 20
-817.3021340188
 10
1438.839377449
 20
-810.1135494095
 10
1441.5815131606
 20
-802.9020922142
 10
1444.1037999644
 20
-795.6820801138
 10
1446.4012300934
 20
-788.4678477739
 10
1448.4692422128
 20
-781.2737183851
 10
1450.3037304759
 20
-774.1139752254
 10
1451.9010526761
 20
-767.0028333021
 10
1453.258037478
 20
-759.9544111292
 10
1454.3719907139
 20
-752.9827026965
 10
1455.2407007328
 20
-746.1015496858
 10
1455.8624427913
 20
-739.3246139894
 10
1456.2359824781
 20
-732.6653505859
 10
1456.3605781648
 20
-726.1369808263
  0
LWPOLYLINE
  5
CE
330
1F
100
AcDbEntity
  8
0
  6
Continuous
 62
     7
370
    25
100
AcDbPolyline
 90
      129
 70
   128
 43
0.0
 10
875.6844894544
 20
-417.2081513126
 10
875.5607314747
 20
-411.4580405443
 10
875.1897556793
 20
-405.8646702183
 10
874.5724557815
 20
-400.4415152539
 10
873.7103189107
 20
-395.2016405062
 10
872.6054220302
 20
-390.1576692926
 10
871.2604269333
 20
-385.3217529814
 10
869.6785738311
 20
-380.7055417187
 10
867.8636735463
 20
-376.3201563617
 10
865.8200983325
 20
-372.1761616878
 10
863.5527713415
 20
-368.2835409432
 10
861.0671547626
 20
-364.6516717923
 10
858.3692366638
 20
-361.2893037258
 10
855.4655165661
 20
-358.204536983
 10
852.3629897857
 20
-355.4048030372
 10
849.0691305812
 20
-352.8968466927
 10
845.591874148
 20
-350.686709836
 10
841.9395975014
 20
-348.7797168803
 10
838.1210992958
 20
-347.1804619387
 10
834.1455786278
 20
-345.8927977564
 10
830.0226128748
 20
-344.9198264294
 10
825.7621346226
 20
-344.2638919306
 10
821.3744077364
 20
-343.9265744637
 10
816.8700026346
 20
-343.9086866562
 10
812.2597708236
 20
-344.2102716012
 10
807.5548187557
 20
-344.8306027542
 10
802.7664810725
 20
-345.7681856832
 10
797.9062932989
 20
-347.0207616688
 10
792.9859640529
 20
-348.5853131456
 10
788.0173468387
 20
-350.4580709721
 10
783.0124114903
 20
-352.6345235108
 10
777.9832153354
 20
-355.1094274968
 10
772.941874148
 20
-357.8768206695
 10
767.9005329606
 20
-360.9300361366
 10
762.8713368057
 20
-364.2617184344
 10
757.8664014573
 20
-367.8638412486
 10
752.8977842431
 20
-371.7277267497
 10
747.9774549971
 20
-375.8440664991
 10
743.1172672235
 20
-380.2029438738
 10
738.3289295403
 20
-384.7938579565
 10
733.6239774724
 20
-389.605748833
 10
729.0137456614
 20
-394.6270242366
 10
724.5093405596
 20
-399.8455874752
 10
720.1216136734
 20
-405.2488665729
 10
715.8611354212
 20
-410.8238445569
 10
711.7381696683
 20
-416.557090817
 10
707.7626490002
 20
-422.4347934608
 10
703.9441507946
 20
-428.4427925879
 10
700.291874148
 20
-434.566614402
 10
696.8146177148
 20
-440.79150608
 10
693.5207585103
 20
-447.1024713128
 10
690.4182317299
 20
-453.4843064321
 10
687.5145116323
 20
-459.9216370383
 10
684.8165935335
 20
-466.398955038
 10
682.3309769545
 20
-472.9006560049
 10
680.0636499635
 20
-479.4110767719
 10
678.0200747497
 20
-485.914533165
 10
676.2051744649
 20
-492.3953577883
 10
674.6233213627
 20
-498.8379377674
 10
673.2783262659
 20
-505.226752363
 10
672.1734293854
 20
-511.5464103611
 10
671.3112925146
 20
-517.7816871521
 10
670.6939926167
 20
-523.9175614079
 10
670.3230168213
 20
-529.9392512702
 10
670.1992588416
 20
-535.8322499605
 10
670.3230168213
 20
-541.5823607288
 10
670.6939926167
 20
-547.1757310547
 10
671.3112925146
 20
-552.5988860192
 10
672.1734293854
 20
-557.8387607668
 10
673.2783262659
 20
-562.8827319805
 10
674.6233213627
 20
-567.7186482916
 10
676.2051744649
 20
-572.3348595544
 10
678.0200747497
 20
-576.7202449114
 10
680.0636499635
 20
-580.8642395852
 10
682.3309769545
 20
-584.7568603298
 10
684.8165935335
 20
-588.3887294808
 10
687.5145116323
 20
-591.7510975473
 10
690.4182317299
 20
-594.83586429
 10
693.5207585103
 20
-597.6355982358
 10
696.8146177148
 20
-600.1435545804
 10
700.291874148
 20
-602.3536914371
 10
703.9441507946
 20
-604.2606843928
 10
707.7626490002
 20
-605.8599393344
 10
711.7381696683
 20
-607.1476035166
 10
715.8611354212
 20
-608.1205748437
 10
720.1216136734
 20
-608.7765093425
 10
724.5093405596
 20
-609.1138268094
 10
729.0137456614
 20
-609.1317146169
 10
733.6239774724
 20
-608.8301296719
 10
738.3289295403
 20
-608.2097985188
 10
743.1172672235
 20
-607.2722155899
 10
747.9774549971
 20
-606.0196396043
 10
752.8977842431
 20
-604.4550881275
 10
757.8664014573
 20
-602.5823303009
 10
762.8713368057
 20
-600.4058777623
 10
767.9005329606
 20
-597.9309737763
 10
772.941874148
 20
-595.1635806035
 10
777.9832153354
 20
-592.1103651365
 10
783.0124114903
 20
-588.7786828386
 10
788.0173468387
 20
-585.1765600245
 10
792.9859640529
 20
-581.3126745234
 10
797.9062932989
 20
-577.196334774
 10
802.7664810725
 20
-572.8374573993
 10
807.5548187557
 20
-568.2465433166
 10
812.2597708236
 20
-563.4346524401
 10
816.8700026346
 20
-558.4133770364
 10
821.3744077364
 20
-553.1948137978
 10
825.7621346226
 20
-547.7915347002
 10
830.0226128748
 20
-542.2165567162
 10
834.1455786278
 20
-536.4833104561
 10
838.1210992958
 20
-530.6056078122
 10
841.9395975014
 20
-524.5976086852
 10
845.591874148
 20
-518.4737868711
 10
849.0691305812
 20
-512.248895193
 10
852.3629897857
 20
-505.9379299603
 10
855.4655165661
 20
-499.556094841
 10
858.3692366638
 20
-493.1187642348
 10
861.0671547626
 20
-486.6414462351
 10
863.5527713415
 20
-480.1397452681
 10
865.8200983325
 20
-473.6293245012
 10
867.8636735463
 20
-467.125868108
 10
869.6785738311
 20
-460.6450434848
 10
871.2604269333
 20
-454.2024635056
 10
872.6054220302
 20
-447.81364891
 10
873.7103189107
 20
-441.4939909119
 10
874.5724557815
 20
-435.258714121
 10
875.1897556793
 20
-429.1228398651
 10
875.5607314747
 20
-423.1011500029
 10
875.6844894544
 20
-417.2081513126
  0
LWPOLYLINE
  5
CF
330
1F
100
AcDbEntity
  8
0
  6
Continuous
 62
     7
370
    25
100
AcDbPolyline
 90
      142
 70
   128
 43
0.0
 10
1456.0070247742
 20
-549.1805225888
 10
1455.8824290875
 20
-542.6521528292
 10
1455.5088894007
 20
-535.9928894256
 10
1454.8871473422
 20
-529.2159537293
 10
1454.0184373234
 20
-522.3348007186
 10
1452.9044840874
 20
-515.3630922859
 10
1451.5474992855
 20
-508.314670113
 10
1449.9501770853
 20
-501.2035281896
 10
1448.1156888222
 20
-494.0437850299
 10
1446.0476767028
 20
-486.8496556412
 10
1443.7502465738
 20
-479.6354233013
 10
1441.22795977
 20
-472.4154112009
 10
1438.4858240584
 20
-465.2039540056
 10
1435.5292836957
 20
-458.0153693963
 10
1432.364208619
 20
-450.8639296421
 10
1428.9968827919
 20
-443.7638332648
 10
1425.4339917282
 20
-436.7291768486
 10
1421.6826092183
 20
-429.7739270525
 10
1417.7501832849
 20
-422.9118928813
 10
1413.6445213957
 20
-416.1566982686
 10
1409.3737749624
 20
-409.521755028
 10
1404.9464231566
 20
-403.0202362252
 10
1400.3712560756
 20
-396.6650500239
 10
1395.6573572901
 20
-390.4688140582
 10
1390.8140858099
 20
-384.4438303808
 10
1385.851057502
 20
-378.6020610393
 10
1380.7781259999
 20
-372.9551043259
 10
1375.6053631394
 20
-367.5141717505
 10
1370.3430389624
 20
-362.290065781
 10
1365.0016013264
 20
-357.2931583963
 10
1359.5916551615
 20
-352.5333704935
 10
1354.123941415
 20
-348.0201521909
 10
1348.6093157264
 20
-343.7624640656
 10
1343.0587268745
 20
-339.7687593633
 10
1337.4831950398
 20
-336.046967215
 10
1331.8937899246
 20
-332.6044768946
 10
1326.3016087753
 20
-329.4481231478
 10
1320.7177543501
 20
-326.584172623
 10
1315.153312875
 20
-324.0183114287
 10
1309.6193320334
 20
-321.7556338449
 10
1304.1267990322
 20
-319.8006322084
 10
1298.6866187871
 20
-318.1571879941
 10
1293.3095922725
 20
-316.8285641083
 10
1288.0063950768
 20
-315.8173984107
 10
1282.7875562071
 20
-315.1256984773
 10
1277.6634371849
 20
-314.7548376142
 10
1272.6442114743
 20
-314.7055521314
 10
1267.7398442833
 20
-314.9779398806
 10
1262.960072779
 20
-315.5714600611
 10
1258.3143867552
 20
-316.4849342936
 10
1253.8120097915
 20
-317.7165489596
 10
1249.4618809407
 20
-319.2638588021
 10
1245.2726369809
 20
-321.1237917806
 10
1241.2525952682
 20
-323.2926551704
 10
1237.4097372233
 20
-325.766142894
 10
1233.7516924851
 20
-328.5393440705
 10
1230.285723763
 20
-331.6067527656
 10
1227.0187124169
 20
-334.9622789234
 10
1223.9571447955
 20
-338.5992604571
 10
1221.1070993578
 20
-342.5104764767
 10
1218.4742346054
 20
-346.6881616247
 10
1216.0637778474
 20
-351.1240214941
 10
1213.8805148226
 20
-355.8092490957
 10
1211.9287801976
 20
-360.7345423436
 10
1210.212448961
 20
-365.8901225242
 10
1208.7349287295
 20
-371.2657537101
 10
1207.4991529827
 20
-376.8507630833
 10
1206.5075752391
 20
-382.6340621245
 10
1205.7621641843
 20
-388.604168629
 10
1205.2643997632
 20
-394.7492295028
 10
1205.0152702408
 20
-401.0570442964
 10
1205.0152702408
 20
-407.5150894273
 10
1205.2643997632
 20
-414.1105430449
 10
1205.7621641843
 20
-420.8303104864
 10
1206.5075752391
 20
-427.6610502755
 10
1207.4991529827
 20
-434.5892006108
 10
1208.7349287295
 20
-441.6010062909
 10
1210.212448961
 20
-448.6825460249
 10
1211.9287801977
 20
-455.819760071
 10
1213.8805148226
 20
-462.9984781514
 10
1216.0637778474
 20
-470.2044475858
 10
1218.4742346054
 20
-477.423361589
 10
1221.1070993578
 20
-484.6408876754
 10
1223.9571447955
 20
-491.8426961151
 10
1227.0187124169
 20
-499.014488384
 10
1230.285723763
 20
-506.1420255524
 10
1233.7516924852
 20
-513.2111565551
 10
1237.4097372233
 20
-520.2078462867
 10
1241.2525952682
 20
-527.1182034675
 10
1245.2726369809
 20
-533.928508223
 10
1249.4618809407
 20
-540.6252393234
 10
1253.8120097915
 20
-547.195101029
 10
1258.3143867552
 20
-553.6250494875
 10
1262.960072779
 20
-559.9023186315
 10
1267.7398442833
 20
-566.0144455241
 10
1272.6442114743
 20
-571.9492951032
 10
1277.6634371849
 20
-577.6950842742
 10
1282.7875562071
 20
-583.2404053046
 10
1288.0063950768
 20
-588.5742484729
 10
1293.3095922725
 20
-593.686023927
 10
1298.6866187871
 20
-598.5655827101
 10
1304.1267990322
 20
-603.2032369098
 10
1309.6193320335
 20
-607.589778893
 10
1315.153312875
 20
-611.7164995867
 10
1320.7177543501
 20
-615.5752057688
 10
1326.3016087753
 20
-619.1582363355
 10
1331.8937899246
 20
-622.4584775112
 10
1337.4831950398
 20
-625.4693769725
 10
1343.0587268745
 20
-628.1849568572
 10
1348.6093157264
 20
-630.599825633
 10
1354.123941415
 20
-632.7091888013
 10
1359.5916551615
 20
-634.5088584168
 10
1365.0016013264
 20
-635.9952614021
 10
1370.3430389624
 20
-637.1654466416
 10
1375.6053631394
 20
-638.0170908409
 10
1380.7781259999
 20
-638.5485031393
 10
1385.851057502
 20
-638.7586284668
 10
1390.8140858099
 20
-638.647049639
 10
1395.6573572901
 20
-638.2139881853
 10
1400.3712560756
 20
-637.4603039093
 10
1404.9464231566
 20
-636.3874931812
 10
1409.3737749624
 20
-634.9976859675
 10
1413.6445213957
 20
-633.2936416017
 10
1417.7501832849
 20
-631.2787433062
 10
1421.6826092183
 20
-628.9569914751
 10
1425.4339917282
 20
-626.3329957316
 10
1428.9968827919
 20
-623.4119657765
 10
1432.364208619
 20
-620.1997010444
 10
1435.5292836957
 20
-616.7025791894
 10
1438.4858240584
 20
-612.9275434235
 10
1441.22795977
 20
-608.8820887305
 10
1443.7502465738
 20
-604.5742469865
 10
1446.0476767028
 20
-600.0125710124
 10
1448.1156888222
 20
-595.2061175935
 10
1449.9501770853
 20
-590.1644294983
 10
1451.5474992855
 20
-584.8975165318
 10
1452.9044840874
 20
-579.4158356622
 10
1454.0184373234
 20
-573.7302702594
 10
1454.8871473422
 20
-567.8521084872
 10
1455.5088894007
 20
-561.7930208917
 10
1455.8824290875
 20
-555.5650372306
 10
1456.0070247742
 20
-549.1805225888
  0
LWPOLYLINE
  5
D0
330
1F
100
AcDbEntity
  8
0
  6
Continuous
 62
     7
370
    25
100
AcDbPolyline
 90
      129
 70
   128
 43
0.0
 10
1433.23818642
 20
-536.0363519884
 10
1433.1144284403
 20
-530.1433532981
 10
1432.7434526449
 20
-524.1216634359
 10
1432.1261527471
 20
-517.98578918
 10
1431.2640158763
 20
-511.7505123891
 10
1430.1591189958
 20
-505.430854391
 10
1428.8141238989
 20
-499.0420397954
 10
1427.2322707967
 20
-492.5994598162
 10
1425.4173705119
 20
-486.118635193
 10
1423.3737952981
 20
-479.6151787998
 10
1421.1064683071
 20
-473.1047580329
 10
1418.6208517282
 20
-466.603057066
 10
1415.9229336294
 20
-460.1257390662
 10
1413.0192135317
 20
-453.68840846
 10
1409.9166867513
 20
-447.3065733407
 10
1406.6228275468
 20
-440.995608108
 10
1403.1455711136
 20
-434.7707164299
 10
1399.493294467
 20
-428.6468946158
 10
1395.6747962614
 20
-422.6388954888
 10
1391.6992755934
 20
-416.761192845
 10
1387.5763098404
 20
-411.0279465848
 10
1383.3158315882
 20
-405.4529686008
 10
1378.928104702
 20
-400.0496895032
 10
1374.4236996002
 20
-394.8311262646
 10
1369.8134677892
 20
-389.8098508609
 10
1365.1085157213
 20
-384.9979599844
 10
1360.3201780381
 20
-380.4070459018
 10
1355.4599902645
 20
-376.048168527
 10
1350.5396610185
 20
-371.9318287776
 10
1345.5710438043
 20
-368.0679432765
 10
1340.5661084559
 20
-364.4658204624
 10
1335.536912301
 20
-361.1341381645
 10
1330.4955711136
 20
-358.0809226975
 10
1325.4542299262
 20
-355.3135295247
 10
1320.4250337713
 20
-352.8386255388
 10
1315.4200984229
 20
-350.6621730001
 10
1310.4514812087
 20
-348.7894151735
 10
1305.5311519627
 20
-347.2248636967
 10
1300.6709641891
 20
-345.9722877112
 10
1295.8826265059
 20
-345.0347047822
 10
1291.177674438
 20
-344.4143736291
 10
1286.567442627
 20
-344.1127886841
 10
1282.0630375252
 20
-344.1306764917
 10
1277.675310639
 20
-344.4679939585
 10
1273.4148323868
 20
-345.1239284573
 10
1269.2918666339
 20
-346.0968997844
 10
1265.3163459658
 20
-347.3845639666
 10
1261.4978477602
 20
-348.9838189082
 10
1257.8455711136
 20
-350.8908118639
 10
1254.3683146804
 20
-353.1009487207
 10
1251.0744554759
 20
-355.6089050652
 10
1247.9719286955
 20
-358.408639011
 10
1245.0682085978
 20
-361.4934057538
 10
1242.3702904991
 20
-364.8557738202
 10
1239.8846739201
 20
-368.4876429712
 10
1237.6173469291
 20
-372.3802637158
 10
1235.5737717153
 20
-376.5242583897
 10
1233.7588714305
 20
-380.9096437467
 10
1232.1770183283
 20
-385.5258550094
 10
1230.8320232315
 20
-390.3617713206
 10
1229.727126351
 20
-395.4057425342
 10
1228.8649894802
 20
-400.6456172819
 10
1228.2476895823
 20
-406.0687722463
 10
1227.8767137869
 20
-411.6621425722
 10
1227.7529558072
 20
-417.4122533406
 10
1227.8767137869
 20
-423.3052520309
 10
1228.2476895823
 20
-429.3269418931
 10
1228.8649894802
 20
-435.4628161489
 10
1229.727126351
 20
-441.6980929399
 10
1230.8320232315
 20
-448.017750938
 10
1232.1770183283
 20
-454.4065655336
 10
1233.7588714305
 20
-460.8491455128
 10
1235.5737717153
 20
-467.329970136
 10
1237.6173469291
 20
-473.8334265291
 10
1239.8846739201
 20
-480.3438472961
 10
1242.3702904991
 20
-486.845548263
 10
1245.0682085978
 20
-493.3228662628
 10
1247.9719286955
 20
-499.7601968689
 10
1251.0744554759
 20
-506.1420319883
 10
1254.3683146804
 20
-512.452997221
 10
1257.8455711136
 20
-518.677888899
 10
1261.4978477602
 20
-524.8017107132
 10
1265.3163459658
 20
-530.8097098402
 10
1269.2918666339
 20
-536.687412484
 10
1273.4148323868
 20
-542.4206587442
 10
1277.675310639
 20
-547.9956367282
 10
1282.0630375252
 20
-553.3989158258
 10
1286.567442627
 20
-558.6174790644
 10
1291.177674438
 20
-563.6387544681
 10
1295.8826265059
 20
-568.4506453445
 10
1300.6709641891
 20
-573.0415594272
 10
1305.5311519627
 20
-577.400436802
 10
1310.4514812087
 20
-581.5167765514
 10
1315.4200984229
 20
-585.3806620525
 10
1320.4250337713
 20
-588.9827848666
 10
1325.4542299262
 20
-592.3144671644
 10
1330.4955711136
 20
-595.3676826315
 10
1335.536912301
 20
-598.1350758043
 10
1340.5661084559
 20
-600.6099797902
 10
1345.5710438043
 20
-602.7864323289
 10
1350.5396610185
 20
-604.6591901555
 10
1355.4599902645
 20
-606.2237416323
 10
1360.3201780381
 20
-607.4763176178
 10
1365.1085157213
 20
-608.4139005468
 10
1369.8134677892
 20
-609.0342316998
 10
1374.4236996002
 20
-609.3358166449
 10
1378.928104702
 20
-609.3179288373
 10
1383.3158315882
 20
-608.9806113705
 10
1387.5763098404
 20
-608.3246768717
 10
1391.6992755934
 20
-607.3517055446
 10
1395.6747962614
 20
-606.0640413623
 10
1399.493294467
 20
-604.4647864208
 10
1403.1455711136
 20
-602.5577934651
 10
1406.6228275468
 20
-600.3476566083
 10
1409.9166867513
 20
-597.8397002638
 10
1413.0192135317
 20
-595.039966318
 10
1415.9229336294
 20
-591.9551995752
 10
1418.6208517282
 20
-588.5928315088
 10
1421.1064683071
 20
-584.9609623578
 10
1423.3737952981
 20
-581.0683416132
 10
1425.4173705119
 20
-576.9243469393
 10
1427.2322707967
 20
-572.5389615823
 10
1428.8141238989
 20
-567.9227503196
 10
1430.1591189958
 20
-563.0868340084
 10
1431.2640158763
 20
-558.0428627948
 10
1432.1261527471
 20
-552.8029880471
 10
1432.7434526449
 20
-547.3798330827
 10
1433.1144284403
 20
-541.7864627568
 10
1433.23818642
 20
-536.0363519884
  0
ENDSEC
  0
SECTION
  2
OBJECTS
  0
DICTIONARY
  5
C
330
0
100
AcDbDictionary
281
     1
  3
ACAD_GROUP
350
D
  3
ACAD_LAYOUT
350
1A
  3
ACAD_MLINESTYLE
350
17
  3
ACAD_PLOTSETTINGS
350
19
  3
ACAD_PLOTSTYLENAME
350
E
  3
ACAD_SCALELIST
350
47
  3
DWGPROPS
350
D1
  0
DICTIONARY
  5
D
102
{ACAD_REACTORS
330
C
102
}
330
C
100
AcDbDictionary
281
     1
  0
DICTIONARY
  5
1A
102
{ACAD_REACTORS
330
C
102
}
330
C
100
AcDbDictionary
281
     1
  3
Layout1
350
1E
  3
Layout2
350
26
  3
Model
350
22
  0
DICTIONARY
  5
17
102
{ACAD_REACTORS
330
C
102
}
330
C
100
AcDbDictionary
281
     1
  3
Standard
350
18
  0
DICTIONARY
  5
19
102
{ACAD_REACTORS
330
C
102
}
330
C
100
AcDbDictionary
281
     1
  0
ACDBDICTIONARYWDFLT
  5
E
102
{ACAD_REACTORS
330
C
102
}
330
C
100
AcDbDictionary
281
     1
  3
Normal
350
F
100
AcDbDictionaryWithDefault
340
F
  0
DICTIONARY
  5
47
102
{ACAD_REACTORS
330
C
102
}
330
C
100
AcDbDictionary
281
     1
  3
A0
350
48
  3
A1
350
49
  3
A2
350
4A
  3
A3
350
4B
  3
A4
350
4C
  3
A5
350
4D
  3
A6
350
4E
  3
A7
350
4F
  3
A8
350
50
  3
A9
350
51
  3
B0
350
52
  3
B1
350
53
  3
B2
350
54
  3
B3
350
55
  3
B4
350
56
  3
B5
350
57
  3
B6
350
58
  3
B7
350
59
  3
B8
350
5A
  3
B9
350
5B
  3
C0
350
5C
  3
C1
350
5D
  3
C2
350
5E
  3
C3
350
5F
  3
C4
350
60
  3
C5
350
61
  3
C6
350
62
  3
C7
350
63
  3
C8
350
64
  3
C9
350
65
  3
D0
350
66
  3
D1
350
67
  3
D2
350
68
  0
XRECORD
  5
D1
102
{ACAD_REACTORS
330
C
102
}
330
C
100
AcDbXrecord
280
     1
  1
DWGPROPS COOKIE
  2

  3

  4

  6

  7

  8
b.kav
  9

300
=
301
=
302
=
303
=
304
=
305
=
306
=
307
=
308
=
309
=
 40
0.0
 41
2460608.405414282
 42
2460608.405414352
  1

 90
        0
  0
LAYOUT
  5
1E
102
{ACAD_REACTORS
330
1A
102
}
330
1A
100
AcDbPlotSettings
  1

  2
none_device
  4

  6

 40
0.0
 41
0.0
 42
0.0
 43
0.0
 44
0.0
 45
0.0
 46
0.0
 47
0.0
 48
0.0
 49
0.0
140
0.0
141
0.0
142
1.0
143
1.0
 70
   688
 72
     1
 73
     0
 74
     5
  7

 75
    16
147
1.0
148
0.0
149
0.0
100
AcDbLayout
  1
Layout1
 70
     1
 71
     1
 10
0.0
 20
0.0
 11
420.0
 21
297.0
 12
0.0
 22
0.0
 32
0.0
 14
1.0000000000E+20
 24
1.0000000000E+20
 34
1.0000000000E+20
 15
-1.0000000000E+20
 25
-1.0000000000E+20
 35
-1.0000000000E+20
146
0.0
 13
0.0
 23
0.0
 33
0.0
 16
1.0
 26
0.0
 36
0.0
 17
0.0
 27
1.0
 37
0.0
 76
     0
330
1B
  0
LAYOUT
  5
26
102
{ACAD_REACTORS
330
1A
102
}
330
1A
100
AcDbPlotSettings
  1

  2
none_device
  4

  6

 40
0.0
 41
0.0
 42
0.0
 43
0.0
 44
0.0
 45
0.0
 46
0.0
 47
0.0
 48
0.0
 49
0.0
140
0.0
141
0.0
142
1.0
143
1.0
 70
   688
 72
     1
 73
     0
 74
     5
  7

 75
    16
147
1.0
148
0.0
149
0.0
100
AcDbLayout
  1
Layout2
 70
     1
 71
     2
 10
0.0
 20
0.0
 11
0.0
 21
0.0
 12
0.0
 22
0.0
 32
0.0
 14
0.0
 24
0.0
 34
0.0
 15
0.0
 25
0.0
 35
0.0
146
0.0
 13
0.0
 23
0.0
 33
0.0
 16
1.0
 26
0.0
 36
0.0
 17
0.0
 27
1.0
 37
0.0
 76
     0
330
23
  0
LAYOUT
  5
22
102
{ACAD_REACTORS
330
1A
102
}
330
1A
100
AcDbPlotSettings
  1

  2
none_device
  4
Letter_(8.50_x_11.00_Inches)
  6

 40
6.35
 41
6.35
 42
6.35000508
 43
6.35000508
 44
215.9
 45
279.4
 46
0.0
 47
0.0
 48
0.0
 49
0.0
140
0.0
141
0.0
142
1.0
143
1.0
 70
  1712
 72
     1
 73
     0
 74
     0
  7

 75
     0
147
1.0
148
0.0
149
0.0
100
AcDbLayout
  1
Model
 70
     1
 71
     0
 10
0.0
 20
0.0
 11
279.4
 21
215.9
 12
0.0
 22
0.0
 32
0.0
 14
0.0
 24
0.0
 34
0.0
 15
279.4
 25
215.9
 35
0.0
146
0.0
 13
0.0
 23
0.0
 33
0.0
 16
1.0
 26
0.0
 36
0.0
 17
0.0
 27
1.0
 37
0.0
 76
     0
330
1F
331
29
  0
MLINESTYLE
  5
18
102
{ACAD_REACTORS
330
17
102
}
330
17
100
AcDbMlineStyle
  2
Standard
 70
     0
  3

 62
   256
 51
90.0
 52
90.0
 71
     2
 49
0.5
 62
   256
  6
BYLAYER
 49
-0.5
 62
   256
  6
BYLAYER
  0
ACDBPLACEHOLDER
  5
F
102
{ACAD_REACTORS
330
E
102
}
330
E
  0
SCALE
  5
48
102
{ACAD_REACTORS
330
47
102
}
330
47
100
AcDbScale
 70
     0
300
1:1
140
1.0
141
1.0
290
     1
  0
SCALE
  5
49
102
{ACAD_REACTORS
330
47
102
}
330
47
100
AcDbScale
 70
     0
300
1:2
140
1.0
141
2.0
290
     0
  0
SCALE
  5
4A
102
{ACAD_REACTORS
330
47
102
}
330
47
100
AcDbScale
 70
     0
300
1:4
140
1.0
141
4.0
290
     0
  0
SCALE
  5
4B
102
{ACAD_REACTORS
330
47
102
}
330
47
100
AcDbScale
 70
     0
300
1:5
140
1.0
141
5.0
290
     0
  0
SCALE
  5
4C
102
{ACAD_REACTORS
330
47
102
}
330
47
100
AcDbScale
 70
     0
300
1:8
140
1.0
141
8.0
290
     0
  0
SCALE
  5
4D
102
{ACAD_REACTORS
330
47
102
}
330
47
100
AcDbScale
 70
     0
300
1:10
140
1.0
141
10.0
290
     0
  0
SCALE
  5
4E
102
{ACAD_REACTORS
330
47
102
}
330
47
100
AcDbScale
 70
     0
300
1:16
140
1.0
141
16.0
290
     0
  0
SCALE
  5
4F
102
{ACAD_REACTORS
330
47
102
}
330
47
100
AcDbScale
 70
     0
300
1:20
140
1.0
141
20.0
290
     0
  0
SCALE
  5
50
102
{ACAD_REACTORS
330
47
102
}
330
47
100
AcDbScale
 70
     0
300
1:30
140
1.0
141
30.0
290
     0
  0
SCALE
  5
51
102
{ACAD_REACTORS
330
47
102
}
330
47
100
AcDbScale
 70
     0
300
1:40
140
1.0
141
40.0
290
     0
  0
SCALE
  5
52
102
{ACAD_REACTORS
330
47
102
}
330
47
100
AcDbScale
 70
     0
300
1:50
140
1.0
141
50.0
290
     0
  0
SCALE
  5
53
102
{ACAD_REACTORS
330
47
102
}
330
47
100
AcDbScale
 70
     0
300
1:100
140
1.0
141
100.0
290
     0
  0
SCALE
  5
54
102
{ACAD_REACTORS
330
47
102
}
330
47
100
AcDbScale
 70
     0
300
2:1
140
2.0
141
1.0
290
     0
  0
SCALE
  5
55
102
{ACAD_REACTORS
330
47
102
}
330
47
100
AcDbScale
 70
     0
300
4:1
140
4.0
141
1.0
290
     0
  0
SCALE
  5
56
102
{ACAD_REACTORS
330
47
102
}
330
47
100
AcDbScale
 70
     0
300
8:1
140
8.0
141
1.0
290
     0
  0
SCALE
  5
57
102
{ACAD_REACTORS
330
47
102
}
330
47
100
AcDbScale
 70
     0
300
10:1
140
10.0
141
1.0
290
     0
  0
SCALE
  5
58
102
{ACAD_REACTORS
330
47
102
}
330
47
100
AcDbScale
 70
     0
300
100:1
140
100.0
141
1.0
290
     0
  0
SCALE
  5
59
102
{ACAD_REACTORS
330
47
102
}
330
47
100
AcDbScale
 70
     0
300
1/128" = 1'-0"
140
0.0078125
141
12.0
290
     0
  0
SCALE
  5
5A
102
{ACAD_REACTORS
330
47
102
}
330
47
100
AcDbScale
 70
     0
300
1/64" = 1'-0"
140
0.015625
141
12.0
290
     0
  0
SCALE
  5
5B
102
{ACAD_REACTORS
330
47
102
}
330
47
100
AcDbScale
 70
     0
300
1/32" = 1'-0"
140
0.03125
141
12.0
290
     0
  0
SCALE
  5
5C
102
{ACAD_REACTORS
330
47
102
}
330
47
100
AcDbScale
 70
     0
300
1/16" = 1'-0"
140
0.0625
141
12.0
290
     0
  0
SCALE
  5
5D
102
{ACAD_REACTORS
330
47
102
}
330
47
100
AcDbScale
 70
     0
300
3/32" = 1'-0"
140
0.09375
141
12.0
290
     0
  0
SCALE
  5
5E
102
{ACAD_REACTORS
330
47
102
}
330
47
100
AcDbScale
 70
     0
300
1/8" = 1'-0"
140
0.125
141
12.0
290
     0
  0
SCALE
  5
5F
102
{ACAD_REACTORS
330
47
102
}
330
47
100
AcDbScale
 70
     0
300
3/16" = 1'-0"
140
0.1875
141
12.0
290
     0
  0
SCALE
  5
60
102
{ACAD_REACTORS
330
47
102
}
330
47
100
AcDbScale
 70
     0
300
1/4" = 1'-0"
140
0.25
141
12.0
290
     0
  0
SCALE
  5
61
102
{ACAD_REACTORS
330
47
102
}
330
47
100
AcDbScale
 70
     0
300
3/8" = 1'-0"
140
0.375
141
12.0
290
     0
  0
SCALE
  5
62
102
{ACAD_REACTORS
330
47
102
}
330
47
100
AcDbScale
 70
     0
300
1/2" = 1'-0"
140
0.5
141
12.0
290
     0
  0
SCALE
  5
63
102
{ACAD_REACTORS
330
47
102
}
330
47
100
AcDbScale
 70
     0
300
3/4" = 1'-0"
140
0.75
141
12.0
290
     0
  0
SCALE
  5
64
102
{ACAD_REACTORS
330
47
102
}
330
47
100
AcDbScale
 70
     0
300
1" = 1'-0"
140
1.0
141
12.0
290
     0
  0
SCALE
  5
65
102
{ACAD_REACTORS
330
47
102
}
330
47
100
AcDbScale
 70
     0
300
1-1/2" = 1'-0"
140
1.5
141
12.0
290
     0
  0
SCALE
  5
66
102
{ACAD_REACTORS
330
47
102
}
330
47
100
AcDbScale
 70
     0
300
3" = 1'-0"
140
3.0
141
12.0
290
     0
  0
SCALE
  5
67
102
{ACAD_REACTORS
330
47
102
}
330
47
100
AcDbScale
 70
     0
300
6" = 1'-0"
140
6.0
141
12.0
290
     0
  0
SCALE
  5
68
102
{ACAD_REACTORS
330
47
102
}
330
47
100
AcDbScale
 70
     0
300
1'-0" = 1'-0"
140
12.0
141
12.0
290
     0
  0
ENDSEC
  0
EOF
